  0
SECTION
  2
HEADER
  9
$ACADVER
  1
AC1009
  9
$INSBASE
 10
7.532916422260491
 20
16.41900215209774
 30
0.0
  9
$EXTMIN
 10
7.532916422260491
 20
15.60090516835885
 30
0.0
  9
$EXTMAX
 10
133.7856240174157
 20
66.41900215210095
 30
0.0
  9
$LIMMIN
 10
0.0
 20
0.0
  9
$LIMMAX
 10
420.0
 20
297.0
  9
$ORTHOMODE
 70
     0
  9
$REGENMODE
 70
     0
  9
$FILLMODE
 70
     1
  9
$QTEXTMODE
 70
     0
  9
$MIRRTEXT
 70
     0
  9
$DRAGMODE
 70
     2
  9
$LTSCALE
 40
1.0
  9
$OSMODE
 70
     0
  9
$ATTMODE
 70
     1
  9
$TEXTSIZE
 40
3.5
  9
$TRACEWID
 40
0.1
  9
$TEXTSTYLE
  7
STANDARD
  9
$CLAYER
  8
0
  9
$CELTYPE
  6
BYLAYER
  9
$CECOLOR
 62
   256
  9
$DIMSCALE
 40
1.0
  9
$DIMASZ
 40
2.0
  9
$DIMEXO
 40
1.0
  9
$DIMDLI
 40
8.0
  9
$DIMRND
 40
0.0
  9
$DIMDLE
 40
0.0
  9
$DIMEXE
 40
2.0
  9
$DIMTP
 40
0.1
  9
$DIMTM
 40
0.1
  9
$DIMTXT
 40
3.5
  9
$DIMCEN
 40
2.0
  9
$DIMTSZ
 40
0.0
  9
$DIMTOL
 70
     0
  9
$DIMLIM
 70
     0
  9
$DIMTIH
 70
     0
  9
$DIMTOH
 70
     0
  9
$DIMSE1
 70
     0
  9
$DIMSE2
 70
     0
  9
$DIMTAD
 70
     1
  9
$DIMZIN
 70
     0
  9
$DIMBLK
  1

  9
$DIMASO
 70
     1
  9
$DIMSHO
 70
     0
  9
$DIMPOST
  1

  9
$DIMAPOST
  1

  9
$DIMALT
 70
     0
  9
$DIMALTD
 70
     2
  9
$DIMALTF
 40
25.39999999999999
  9
$DIMLFAC
 40
1.0
  9
$DIMTOFL
 70
     0
  9
$DIMTVP
 40
0.0
  9
$DIMTIX
 70
     0
  9
$DIMSOXD
 70
     0
  9
$DIMSAH
 70
     0
  9
$DIMBLK1
  1

  9
$DIMBLK2
  1

  9
$DIMSTYLE
  2
*UNNAMED
  9
$DIMCLRD
 70
     0
  9
$DIMCLRE
 70
     0
  9
$DIMCLRT
 70
     0
  9
$DIMTFAC
 40
1.0
  9
$DIMGAP
 40
0.09
  9
$LUNITS
 70
     2
  9
$LUPREC
 70
     3
  9
$SKETCHINC
 40
0.1
  9
$FILLETRAD
 40
20.0
  9
$AUNITS
 70
     0
  9
$AUPREC
 70
     1
  9
$MENU
  1

  9
$ELEVATION
 40
0.0
  9
$PELEVATION
 40
0.0
  9
$THICKNESS
 40
0.0
  9
$LIMCHECK
 70
     0
  9
$BLIPMODE
 70
     0
  9
$CHAMFERA
 40
0.0
  9
$CHAMFERB
 40
0.0
  9
$SKPOLY
 70
     1
  9
$TDCREATE
 40
2448530.575451273
  9
$TDUPDATE
 40
2449393.432168865
  9
$TDINDWG
 40
0.0004609954
  9
$TDUSRTIMER
 40
0.0004609954
  9
$USRTIMER
 70
     1
  9
$ANGBASE
 50
0.0
  9
$ANGDIR
 70
     0
  9
$PDMODE
 70
     0
  9
$PDSIZE
 40
0.0
  9
$PLINEWID
 40
0.0
  9
$COORDS
 70
     2
  9
$SPLFRAME
 70
     0
  9
$SPLINETYPE
 70
     6
  9
$SPLINESEGS
 70
     8
  9
$ATTDIA
 70
     1
  9
$ATTREQ
 70
     1
  9
$HANDLING
 70
     0
  9
$HANDSEED
  5
A8
  9
$SURFTAB1
 70
     6
  9
$SURFTAB2
 70
     6
  9
$SURFTYPE
 70
     6
  9
$SURFU
 70
     6
  9
$SURFV
 70
     6
  9
$UCSNAME
  2

  9
$UCSORG
 10
0.0
 20
0.0
 30
0.0
  9
$UCSXDIR
 10
1.0
 20
0.0
 30
0.0
  9
$UCSYDIR
 10
0.0
 20
1.0
 30
0.0
  9
$PUCSNAME
  2

  9
$PUCSORG
 10
0.0
 20
0.0
 30
0.0
  9
$PUCSXDIR
 10
1.0
 20
0.0
 30
0.0
  9
$PUCSYDIR
 10
0.0
 20
1.0
 30
0.0
  9
$USERI1
 70
     0
  9
$USERI2
 70
     3
  9
$USERI3
 70
    15
  9
$USERI4
 70
     0
  9
$USERI5
 70
     0
  9
$USERR1
 40
1.0
  9
$USERR2
 40
1.0
  9
$USERR3
 40
0.0
  9
$USERR4
 40
1.0
  9
$USERR5
 40
0.0
  9
$WORLDVIEW
 70
     1
  9
$SHADEDGE
 70
     3
  9
$SHADEDIF
 70
    70
  9
$TILEMODE
 70
     1
  9
$MAXACTVP
 70
    16
  9
$PINSBASE
 10
0.0
 20
0.0
 30
0.0
  9
$PLIMCHECK
 70
     0
  9
$PEXTMIN
 10
1.000000000000000E+20
 20
1.000000000000000E+20
 30
1.000000000000000E+20
  9
$PEXTMAX
 10
-1.000000000000000E+20
 20
-1.000000000000000E+20
 30
-1.000000000000000E+20
  9
$PLIMMIN
 10
0.0
 20
0.0
  9
$PLIMMAX
 10
12.0
 20
9.0
  9
$UNITMODE
 70
     0
  9
$VISRETAIN
 70
     0
  9
$PLINEGEN
 70
     0
  9
$PSLTSCALE
 70
     0
  9
$TREEDEPTH
 70
  3020
  9
$DWGCODEPAGE
  3
undefined
  0
ENDSEC
  0
SECTION
  2
TABLES
  0
TABLE
  2
VPORT
 70
     2
  0
VPORT
  2
*ACTIVE
 70
     0
 10
0.0
 20
0.0
 11
1.0
 21
1.0
 12
70.50394013394819
 22
65.78188090914106
 13
0.0
 23
0.0
 14
1.0
 24
1.0
 15
10.0
 25
10.0
 16
0.0
 26
0.0
 36
1.0
 17
0.0
 27
0.0
 37
0.0
 40
98.72575751408663
 41
1.275675675675675
 42
50.0
 43
0.0
 44
0.0
 50
0.0
 51
0.0
 71
     0
 72
   100
 73
     1
 74
     1
 75
     0
 76
     0
 77
     0
 78
     0
  0
ENDTAB
  0
TABLE
  2
LTYPE
 70
     1
  0
LTYPE
  2
AUSGEZOGEN
 70
    64
  3
Solid line
 72
    65
 73
     0
 40
0.0
  0
ENDTAB
  0
TABLE
  2
LAYER
 70
     3
  0
LAYER
  2
0
 70
     0
 62
     7
  6
AUSGEZOGEN
  0
LAYER
  2
ITEM_50
 70
    64
 62
     7
  6
AUSGEZOGEN
  0
LAYER
  2
ITEM_25
 70
    64
 62
     3
  6
AUSGEZOGEN
  0
ENDTAB
  0
TABLE
  2
STYLE
 70
     1
  0
STYLE
  2
STANDARD
 70
     0
 40
0.0
 41
1.0
 50
0.0
 71
     0
 42
3.5
  3
iso
  4

  0
ENDTAB
  0
TABLE
  2
VIEW
 70
     0
  0
ENDTAB
  0
TABLE
  2
UCS
 70
     0
  0
ENDTAB
  0
TABLE
  2
APPID
 70
     1
  0
APPID
  2
ACAD
 70
    64
  0
ENDTAB
  0
TABLE
  2
DIMSTYLE
 70
     0
  0
ENDTAB
  0
ENDSEC
  0
SECTION
  2
BLOCKS
  0
ENDSEC
  0
SECTION
  2
ENTITIES
  0
LINE
  8
ITEM_50
 10
11.5329164222695
 20
60.41900215210095
 30
0.0
 11
11.5329164222695
 21
50.41900215210095
 31
0.0
  0
LINE
  8
ITEM_50
 10
43.5329164222695
 20
60.41900215210095
 30
0.0
 11
43.5329164222695
 21
50.41900215210095
 31
0.0
  0
LINE
  8
ITEM_50
 10
7.532916422269501
 20
66.41900215210095
 30
0.0
 11
7.532916422269501
 21
60.41900215210095
 31
0.0
  0
LINE
  8
ITEM_50
 10
47.5329164222695
 20
66.41900215210095
 30
0.0
 11
7.532916422269501
 21
66.41900215210095
 31
0.0
  0
LINE
  8
ITEM_50
 10
47.5329164222695
 20
60.41900215210095
 30
0.0
 11
47.5329164222695
 21
66.41900215210095
 31
0.0
  0
LINE
  8
ITEM_50
 10
7.532916422269501
 20
60.41900215210095
 30
0.0
 11
47.5329164222695
 21
60.41900215210095
 31
0.0
  0
LINE
  8
ITEM_50
 10
7.532916422269501
 20
48.41900215210095
 30
0.0
 11
47.49800629242208
 21
48.41900215210101
 31
0.0
  0
LINE
  8
ITEM_50
 10
8.51300687180845
 20
22.41900215210098
 30
0.0
 11
46.55282597273055
 21
22.41900215210098
 31
0.0
  0
LINE
  8
ITEM_50
 10
22.86400914515164
 20
48.41900215210095
 30
0.0
 11
22.9781036566811
 21
22.41900215210098
 31
0.0
  0
LINE
  8
ITEM_50
 10
19.8792477749679
 20
48.41900215210101
 30
0.0
 11
20.06628117141219
 21
22.41900215210098
 31
0.0
  0
LINE
  8
ITEM_50
 10
17.08294512795064
 20
48.41900215210101
 30
0.0
 11
17.33831202636083
 21
22.41900215210098
 31
0.0
  0
LINE
  8
ITEM_50
 10
14.54395545566593
 20
48.41900215210095
 30
0.0
 11
14.86136787548944
 21
22.41900215210098
 31
0.0
  0
LINE
  8
ITEM_50
 10
12.32479711026892
 20
48.41900215210095
 30
0.0
 11
12.69643930429794
 21
22.41900215210095
 31
0.0
  0
LINE
  8
ITEM_50
 10
10.48011313518768
 20
48.41900215210095
 30
0.0
 11
10.8968340391952
 21
22.41900215210098
 31
0.0
  0
LINE
  8
ITEM_50
 10
9.055325772043751
 20
48.41900215210095
 30
0.0
 11
9.506864334356187
 21
22.41900215210098
 31
0.0
  0
LINE
  8
ITEM_50
 10
8.085518014315887
 20
48.41900215210095
 30
0.0
 11
8.56075585695877
 21
22.41900215210095
 31
0.0
  0
LINE
  8
ITEM_50
 10
25.9637345077129
 20
48.41900215210095
 30
0.0
 11
26.00208074879578
 21
22.41900215210098
 31
0.0
  0
LINE
  8
ITEM_50
 10
46.98031483022317
 20
48.41900215210095
 30
0.0
 11
46.50507698758028
 21
22.41900215210095
 31
0.0
  0
LINE
  8
ITEM_50
 10
46.0105070724953
 20
48.41900215210095
 30
0.0
 11
45.55896851018287
 21
22.41900215210098
 31
0.0
  0
LINE
  8
ITEM_50
 10
44.58571970935137
 20
48.41900215210095
 30
0.0
 11
44.16899880534385
 21
22.41900215210098
 31
0.0
  0
LINE
  8
ITEM_50
 10
42.74103573427013
 20
48.41900215210095
 30
0.0
 11
42.36939354024111
 21
22.41900215210095
 31
0.0
  0
LINE
  8
ITEM_50
 10
40.52187738887312
 20
48.41900215210095
 30
0.0
 11
40.20446496904961
 21
22.41900215210098
 31
0.0
  0
LINE
  8
ITEM_50
 10
37.98288771658841
 20
48.41900215210101
 30
0.0
 11
37.72752081817822
 21
22.41900215210098
 31
0.0
  0
LINE
  8
ITEM_50
 10
35.18658506957115
 20
48.41900215210101
 30
0.0
 11
34.99955167312686
 21
22.41900215210098
 31
0.0
  0
LINE
  8
ITEM_50
 10
32.20182369938741
 20
48.41900215210095
 30
0.0
 11
32.08772918785795
 21
22.41900215210098
 31
0.0
  0
LINE
  8
ITEM_50
 10
29.10209833682615
 20
48.41900215210095
 30
0.0
 11
29.06375209574327
 21
22.41900215210098
 31
0.0
  0
ARC
  8
ITEM_50
 10
46.55282597273055
 20
22.91900215210098
 30
0.0
 40
0.5
 50
270.0
 51
358.9999999999999
  0
ARC
  8
ITEM_50
 10
8.51300687180845
 20
22.91900215210098
 30
0.0
 40
0.5
 50
181.0
 51
270.0
  0
ARC
  8
ITEM_50
 10
42.00850283421244
 20
20.41900215210101
 30
0.0
 40
4.0
 50
269.9999999999999
 51
358.9999999999999
  0
ARC
  8
ITEM_50
 10
13.05733001032655
 20
20.41900215210101
 30
0.0
 40
4.0
 50
181.0
 51
270.0
  0
LINE
  8
ITEM_50
 10
13.05733001032655
 20
16.41900215210101
 30
0.0
 11
42.00850283421244
 21
16.41900215210101
 31
0.0
  0
LINE
  8
ITEM_50
 10
46.04402227624451
 20
22.41900215210098
 30
0.0
 11
46.007893614838
 21
20.34919252635187
 31
0.0
  0
LINE
  8
ITEM_50
 10
47.53291642227851
 20
50.41900215210095
 30
0.0
 11
47.05274982030875
 21
22.91027594888235
 31
0.0
  0
LINE
  8
ITEM_50
 10
9.02181056829449
 20
22.41900215210098
 30
0.0
 11
9.057939229700998
 21
20.34919252635187
 31
0.0
  0
LINE
  8
ITEM_50
 10
7.532916422260491
 20
50.41900215210095
 30
0.0
 11
8.013083024230248
 21
22.91027594888235
 31
0.0
  0
LINE
  8
ITEM_50
 10
7.532916422269501
 20
50.41900215210095
 30
0.0
 11
47.5329164222695
 21
50.41900215210095
 31
0.0
  0
LINE
  8
ITEM_50
 10
81.97496384563588
 20
60.4190021520978
 30
0.0
 11
81.97496384563588
 21
56.9190021520978
 31
0.0
  0
LINE
  8
ITEM_50
 10
113.9749638456358
 20
60.4190021520978
 30
0.0
 11
113.9749638456358
 21
56.9190021520978
 31
0.0
  0
LINE
  8
ITEM_50
 10
77.97496384563588
 20
66.4190021520978
 30
0.0
 11
77.97496384563588
 21
60.4190021520978
 31
0.0
  0
LINE
  8
ITEM_50
 10
117.9749638456358
 20
66.4190021520978
 30
0.0
 11
77.97496384563588
 21
66.4190021520978
 31
0.0
  0
LINE
  8
ITEM_50
 10
117.9749638456358
 20
60.4190021520978
 30
0.0
 11
117.9749638456358
 21
66.4190021520978
 31
0.0
  0
LINE
  8
ITEM_50
 10
77.97496384563588
 20
60.4190021520978
 30
0.0
 11
117.9749638456358
 21
60.4190021520978
 31
0.0
  0
LINE
  8
ITEM_50
 10
77.97496384562684
 20
56.9190021520978
 30
0.0
 11
117.9749638456449
 21
56.9190021520978
 31
0.0
  0
LINE
  8
ITEM_50
 10
118.4749638456358
 20
33.91900215209786
 30
0.0
 11
118.4749638456358
 21
33.41900215209786
 31
0.0
  0
LINE
  8
ITEM_50
 10
133.4749638456358
 20
17.91900215209786
 30
0.0
 11
133.4749638456358
 21
19.41900215209786
 31
0.0
  0
LINE
  8
ITEM_50
 10
129.604113469957
 20
20.25433997382164
 30
0.0
 11
130.2517674438287
 21
20.97062932806132
 31
0.0
  0
LINE
  8
ITEM_50
 10
118.4749638456358
 20
33.41900215208811
 30
0.0
 11
130.2344454573456
 21
21.65952054037838
 31
0.0
  0
ARC
  8
ITEM_50
 10
129.8808920667523
 20
21.3059671497851
 30
0.0
 40
0.5
 50
317.8807672759689
 51
44.99999999999997
  0
ARC
  8
ITEM_50
 10
129.9749888470333
 20
19.91900215209786
 30
0.0
 40
0.5
 50
137.8807672759691
 51
270.0
  0
ARC
  8
ITEM_50
 10
117.9749638456358
 20
33.91900215209786
 30
0.0
 40
0.5
 50
0.0
 51
90.0
  0
ARC
  8
ITEM_50
 10
131.9749638456358
 20
17.91900215209786
 30
0.0
 40
1.5
 50
270.0
 51
0.0
  0
ARC
  8
ITEM_50
 10
63.97496384563599
 20
17.91900215209774
 30
0.0
 40
1.5
 50
180.0000000000001
 51
270.0000000000002
  0
ARC
  8
ITEM_50
 10
77.97496384563588
 20
33.9190021520978
 30
0.0
 40
0.5
 50
90.00000000000018
 51
180.0000000000001
  0
ARC
  8
ITEM_50
 10
65.9749388442385
 20
19.91900215209774
 30
0.0
 40
0.5
 50
270.0000000000002
 51
42.11923272403106
  0
ARC
  8
ITEM_50
 10
66.06903562451951
 20
21.30596714978501
 30
0.0
 40
0.5
 50
135.0000000000001
 51
222.1192327240312
  0
LINE
  8
ITEM_50
 10
77.47496384563594
 20
33.41900215208805
 30
0.0
 11
65.71548223392623
 21
21.65952054037829
 31
0.0
  0
LINE
  8
ITEM_50
 10
66.34581422131485
 20
20.25433997382155
 30
0.0
 11
65.69816024744316
 21
20.9706293280612
 31
0.0
  0
LINE
  8
ITEM_50
 10
62.47496384563599
 20
17.91900215209774
 30
0.0
 11
62.47496384563599
 21
19.41900215209774
 31
0.0
  0
LINE
  8
ITEM_50
 10
77.47496384563588
 20
33.9190021520978
 30
0.0
 11
77.47496384563594
 21
33.4190021520978
 31
0.0
  0
LINE
  8
ITEM_50
 10
77.97496384563588
 20
34.4190021520978
 30
0.0
 11
117.9749638456358
 21
34.41900215209786
 31
0.0
  0
LINE
  8
ITEM_50
 10
118.4749638456358
 20
33.41900215208811
 30
0.0
 11
77.47496384563594
 21
33.4190021520978
 31
0.0
  0
LINE
  8
ITEM_50
 10
62.47496384563599
 20
19.41900215209774
 30
0.0
 11
133.4749638456358
 21
19.41900215209786
 31
0.0
  0
LINE
  8
ITEM_50
 10
63.97496384563599
 20
16.41900215209774
 30
0.0
 11
131.9749638456358
 21
16.41900215209786
 31
0.0
  0
LINE
  8
ITEM_25
 10
66.06903562451951
 20
21.30596714978501
 30
0.0
 11
129.8808920667523
 21
21.3059671497851
 31
0.0
  0
LINE
  8
ITEM_50
 10
77.97496384562684
 20
56.9190021520978
 30
0.0
 11
78.36770280651181
 21
34.4190021520978
 31
0.0
  0
LINE
  8
ITEM_50
 10
117.9749638456449
 20
56.9190021520978
 30
0.0
 11
117.5822248847599
 21
34.41900215209783
 31
0.0
  0
LINE
  8
ITEM_50
 10
99.5441457601925
 20
54.9190021520978
 30
0.0
 11
99.51391122395408
 21
34.41900215209783
 31
0.0
  0
LINE
  8
ITEM_50
 10
102.6438711227537
 20
54.9190021520978
 30
0.0
 11
102.5539119886632
 21
34.41900215209783
 31
0.0
  0
LINE
  8
ITEM_50
 10
105.6286324929375
 20
54.9190021520978
 30
0.0
 11
105.4811638534333
 21
34.41900215209783
 31
0.0
  0
LINE
  8
ITEM_50
 10
108.4249351399547
 20
54.9190021520978
 30
0.0
 11
108.2235881623621
 21
34.41900215209783
 31
0.0
  0
LINE
  8
ITEM_50
 10
110.9639248122395
 20
54.9190021520978
 30
0.0
 11
110.7136573273786
 21
34.41900215209783
 31
0.0
  0
LINE
  8
ITEM_50
 10
113.1830831576365
 20
54.9190021520978
 30
0.0
 11
112.8900575815751
 21
34.41900215209783
 31
0.0
  0
LINE
  8
ITEM_50
 10
115.0277671327177
 20
54.9190021520978
 30
0.0
 11
114.6991987276348
 21
34.41900215209783
 31
0.0
  0
LINE
  8
ITEM_50
 10
116.4525544958616
 20
54.9190021520978
 30
0.0
 11
116.0965337063461
 21
34.41900215209783
 31
0.0
  0
LINE
  8
ITEM_50
 10
117.4223622535895
 20
54.9190021520978
 30
0.0
 11
117.0476554930441
 21
34.41900215209783
 31
0.0
  0
LINE
  8
ITEM_50
 10
96.40578193107926
 20
54.9190021520978
 30
0.0
 11
96.43601646731768
 21
34.4190021520978
 31
0.0
  0
LINE
  8
ITEM_50
 10
78.52756543768229
 20
54.9190021520978
 30
0.0
 11
78.90227219822763
 21
34.4190021520978
 31
0.0
  0
LINE
  8
ITEM_50
 10
79.49737319541013
 20
54.9190021520978
 30
0.0
 11
79.85339398492571
 21
34.4190021520978
 31
0.0
  0
LINE
  8
ITEM_50
 10
80.92216055855406
 20
54.9190021520978
 30
0.0
 11
81.25072896363688
 21
34.4190021520978
 31
0.0
  0
LINE
  8
ITEM_50
 10
82.7668445336353
 20
54.9190021520978
 30
0.0
 11
83.05987010969663
 21
34.4190021520978
 31
0.0
  0
LINE
  8
ITEM_50
 10
84.98600287903234
 20
54.9190021520978
 30
0.0
 11
85.23627036389318
 21
34.4190021520978
 31
0.0
  0
LINE
  8
ITEM_50
 10
87.52499255131702
 20
54.9190021520978
 30
0.0
 11
87.72633952890969
 21
34.4190021520978
 31
0.0
  0
LINE
  8
ITEM_50
 10
90.32129519833431
 20
54.9190021520978
 30
0.0
 11
90.4687638378384
 21
34.4190021520978
 31
0.0
  0
LINE
  8
ITEM_50
 10
93.30605656851803
 20
54.9190021520978
 30
0.0
 11
93.39601570260855
 21
34.4190021520978
 31
0.0
  0
LINE
  8
ITEM_50
 10
77.97496384563588
 20
54.9190021520978
 30
0.0
 11
117.9400537157884
 21
54.9190021520978
 31
0.0
  0
ENDSEC
  0
EOF
